BIG BOSS MAN - Grateful Web view Big Boss Man Big boss man, can't you hear me when I call? Big boss

  • View
    3

  • Download
    0

Embed Size (px)

Text of BIG BOSS MAN - Grateful Web view Big Boss Man Big boss man, can't you hear me when I call? Big boss

BIG BOSS MAN

Big Boss Man

Big boss man, can't you hear me when I call?

Big boss man, can't you hear me when I call?

You ain't so big, you just tall, that's just about all.

You got me working boss man,

A-workin' around the clock,

I want a little drink of whiskey,

You sure won't let me stop.

Big boss man,

can't you hear me when I call?

You ain't so big, you just tall,

that's just about all.

I'm gonna get me a boss man,

One gonna treat me right,

I work hard in the daytime,

Sure get drunk at night.

Callin' Big boss man, can't you hear me when I call?

You ain't so big, you just tall, that's just about all.

Big Boss Man

|---E------------------|--------------------------------|

|-----9------9---------|-----9-------9--------------7---|

|----------------------|--------------------9-7---------|

|-7/9---9--9---9-7---7/|-7/9---9---9---9--------9\7---7-|

|----------------------|--------------------------------|

|--Intro----------------|--------------------------------|

|  |

|-Phil-----------------|--------------------------------|

|----------------------|--------------------------------|

|----------------------|--------------------------------|

|----------2-0---0-----|-1/2p0-2p0-2p0--------0---------|

|--------------2-------|----------------2-1/2---2-0-----|

|----------------------|----------------------------3-0-|

|------4---------5-----|-----------------|

|--------5-------------|-----------------|

|----------4-6/7---7-6-|-4~--------------|

|-5h6~~----------------|-----------7-----|

|----------------------|-----4-5-6-------|

|----------------------|-----------------|

| |

|-Phil-----------------|-----------------|

|----------------------|-----------------|

|----------------------|-----------------|

|---2------------------|-----------0h1~~-|

|--------0-2-4/5-4h5---|-------0-2-------|

|------4-------------5-|-4---4-----------|

E

Big boss man,

|----------------|

|------5---------|

|--------6-------|

|--5h6-----5h6---|

|--------------7-|

|----------------|

can't you hear me when I call?

A E E7

Big boss man, can't you hear me when I call?

B7 A E

You ain't so big, you just tall, that's just about all.

|-------------|

|-7/9---------|

|-------------|

|-7/9---------|

|-------------|

|-------------|

You got me working boss man,

A-workin' around the clock,

I want a little drink of whiskey,

You sure won't let me stop.

|----------|

|----------|

|----------|

|-1h2~~~~--|

|----------|

|----------|

Big boss man,

|---------------|

|---------------|

|-6--7b-8r7--6--|

|-7--9b10r9--7--|

|---------------|

|---------------|

can't you hear me when I call?

You ain't so big, you just tall,

that's just about all.

|---------|----------|--------------|---------------|----|

|---------|-------10-|-12---10--8/9-|---------------|----|

|---------|-------11-|-13---11--8/9-|-9---9---------|-8--|

|-7/9-7-6-|----------|--------------|-9---9h11p9----|-9--|

|---------|-7--------|--------------|------------11-|----|

|-that’s--|----------|--------------|---------------|----|

Guitar Solo

|--------------7-6\5-|-4------------5-----------------|---------------------------|---------------------|

|-8p7p5--------9-8\7-|-5-----5--7b8-7-5---5------5--7b|-8-7-5---7b8-7-5---5-------|-----5-7-5-----------|

|--------------------|---4h6------------6-4--4h6------|-------6---------6-----7-7-|-5/6-------------2-2-|

|----------5\2-------|--------------------------------|---------------------------|-----------5\2-------|

|-E------------------|--------------------------------|---------------------------|---------------4-----|

|-Live 2-------------|--------------------------------|---------------------------|---A-----------------|

|---------------------4-4-----|-4---5/7--5--4--5/7-------4-4-4---------|-------------------------|

|---------5-8p7p5-----5-5-7p5-|-5---7/9--7--5--7/9--7-5--5-5-5---5-7b9-|-7-----------------5-7b9r|

|---5/6-----------6-4---------|---------------------6-6--------7-4-----|---4-6p4---4---4h6-------|

|-----------------------------|----------------------------------------|---------6---------------|

|-----------------------------|----------------------------------------|-------------------------|

|-----------------------------|-E--------------------------------------|-B-----------------------|

|---------12-------------------|--------------------------------------|--------------------------|

|-7-5-7-5-------------12b14r12-|--------------9-----------------------|--------------------------|

|------------11b12-9-----------|-11b12r11-9-----11-11-9----11b12r11-9-|-9-9----9------9-------8--|

|------------------------------|------------------------11------------|---9h11-9------9-11----9--|

|------------------------------|--------------------------------------|----------11p9------11----|

|-A----------------------------|-E------------------------------------|-----------------------B--|

9/18/2009

Harp Solo

I'm gonna get me a boss man,

One gonna treat me right,

I work hard in the daytime,

Sure get drunk at night.

Callin' Big boss man, can't you hear me when I call?

You ain't so big, you just tall, that's just about all.

9/18/2009

BigBossMan Lead.mp3

, track 1

2006

48299.883

eng -