Pirates of the Caribbean - Theme Music Guitar Tabs

Embed Size (px)

DESCRIPTION

Guitar Tabs for Theme Music of Pirates of the Carribean

Text of Pirates of the Caribbean - Theme Music Guitar Tabs

  • This TAB is from http://www.guitartabmaker.com/

    Watch the video of HEMO how to play this song

    http://www.guitartabmaker.com/2012/11/pirates-of-caribbean-theme-song-

    tab.html

    Pirates of the caribbean tab (cover by Hemo)

    e-----------------------------------------------------------------------

    H-----------------------------------------------------------------------

    G----------------------------------------------------7------------------

    D----------------------------------------------------x------------------

    A-5---5-5---5-5---5-5-5-5---5---5-5---5-5---5-5-5-5--5------------------

    E-----------------------------------------------------------------------

    x x x x x x x x x x x x x x x x x x

    e-----------------------------------------------------------------------

    H----------------5-6---6---6-8-5---5------------------------------------

    G----5-7---7---7-----------------------7-5-5h7--------------------------

    D-/7--------------------------------------------------------------------

    A-----------------------------------------------------------------------

    E-----------------------------------------------------------------------

    e-----------------------------------------------------------------------

    H---------------5-6---6---6-8-5---5-------------------------------------

    G---5-7---7---7-----------------------7-5-7-----------------------------

    D-7---------------------------------------------------------------------

    A-----------------------------------------------------------------------

    E-----------------------------------------------------------------------

  • e---------------------------5-6---6---5-------5-------------------------

    H---------------6-8---8---8---------------8-----------------------------

    G---5-7---7---7-----------------------------------7---------------------

    D-7---------------------------------------------------------------------

    A-----------------------------------------------------------------------

    E-----------------------------------------------------------------------

    e-----------------5-----------------------------------------------------

    H---5-6---6---8---------------6-5---5---6---5---------------------------

    G-7-----------------7-------7-------------7-----------------------------

    D-----------------------------------------------------------------------

    A-----------------------------------------------------------------------

    E-----------------------------------------------------------------------

    e-----------------------------------------------------------------------

    H---------------5-6---6---6-8-5---5-------------------------------------

    G---5-7---7---7-----------------------7-5-5h7---------------------------

    D-7---------------------------------------------------------------------

    A-----------------------------------------------------------------------

    E-----------------------------------------------------------------------

    e-----------------------------------------------------------------------

    H---------------5-6---6---6-8-5---5-------------------------------------

    G---5-7---7---7-----------------------7-5-7-----------------------------

    D-7---------------------------------------------------------------------

    A-----------------------------------------------------------------------

    E-----------------------------------------------------------------------

  • e---------------------------5-6---6---5-------5-------------------------

    H---------------6-8---8---8---------------8-----------------------------

    G---5-7---7---7-----------------------------------7---------------------

    D-7---------------------------------------------------------------------

    A-----------------------------------------------------------------------

    E-----------------------------------------------------------------------

    e-----------------5-----------------------------------------------5\----

    H---5-6---6---8---------------6-5---5--------------/5---6---6---8-------

    G-7-----------------7-------7-----------7-5-7---7-----------------------

    D-----------------------------------------------------------------------

    A-----------------------------------------------------------------------

    E-----------------------------------------------------------------------

    e-1------------------6--------------------------------------------------

    H---3------------------------6------------------------------------------

    G-----2------------------------7-------------------------7------10------

    D--------------------------------8\--------------/7---------------------

    A-----------------------------------------------------------------------

    E-----------------------------------------------------------------------

    e-----------------------------------------------------------------------

    H-10---10---10---11-10.---------8---8---8---8-10.-----------------------

    G-10---10---10------------------9---9---9-------------------------------

    D-----------------------------------------------------------------------

    A-----------------------------------------------------------------------

    E-----------------------------------------------------------------------

  • e-----------------------------------------------------------------------

    H-10---10---10---11-10.---------6/8---6---------------------------------

    G-10---10---10------------------7/9---7---9---7-------------------------

    D-----------------------------------------------------------------------

    A-----------------------------------------------------------------------

    E-----------------------------------------------------------------------

    e-----------------------------------------------------------------------

    H----------8-10---8-----------------8---10---8--------------------------

    G-7-9-10--------------10---9---10---------------------------------------

    D-----------------------------------------------------------------------

    A-----------------------------------------------------------------------

    E-----------------------------------------------------------------------

    e-----------------------------------------------------------------------

    H----8-10---8h10p8------------------------------------------------------

    G-10--------------10---9---10---9---7------9-5---7----------------------

    D-----------------------------------------------------------------------

    A-----------------------------------------------------------------------

    E-----------------------------------------------------------------------

    e-----------------------------------------------------------------------

    H-----------------8--------8---10---8-----------------------------------

    G-7-9-10---9-10-------10----------------10---7--------------------------

    D-----------------------------------------------------------------------

    A-----------------------------------------------------------------------

    E-----------------------------------------------------------------------

  • e-----------------------------------------------------------------------

    H----------8---10---10/11-------8--------8------------------------------

    G-7-9-10--------------------7-------10-----9---7---9-5------------------

    D-----------------------------------------------------------------------

    A-----------------------------------------------------------------------

    E-----------------------------------------------------------------------

    e-----------------------------------------------------------------------

    H-10~~--11~~--10---10---10---10-8~~-----8~~--6~~---5---6---5------------

    G-------------10---10------------------------7~~---5-----------7--------

    D-----------------------------------------------------------------------

    A-----------------------------------------------------------------------

    E-----------------------------------------------------------------------

    e-----------------------------------------------------------------------

    H-10~~--11~~--10---10---10---10-8~~-----8~~--6~~---5---6---5------------

    G-------------10---10------------------------------------------7--------

    D-----------------------------------------------------------------------

    A-----------------------------------------------------------------------

    E-----------------------------------------------------------------------

    e---------------------------------------------------8-------------------

    H--------10--------------11---------------10---10-------10-8------------

    G---7-10------------7-10-------------7-10-------------------------------

    D-7---------------7----------------7------------------------------------

    A-----------------------------------------------------------------------

    E-----------------------------------------------------------------------

  • e-----------------------------------------------------------------------

    H-8~~---6~~---5---6---5-------------------------------------------------

    G-9~~---7~~---5-----------7---------------------------------------------

    D-----------------------------------------------------------------------

    A-----------------------------------------------------------------------

    E-----------------------------------------------------------------------

    e----------------------------